  0
SECTION
  2
ENTITIES
  0
CIRCLE
  8
APS_GEOMETRY
 10
-5931.081516
 20
-5582.257631
 40
1.0
  0
CIRCLE
  8
APS_GEOMETRY
 10
-5830.539811
 20
-5584.587876
 40
3.0
  0
CIRCLE
  8
APS_GEOMETRY
 10
-5810.570707
 20
-5605.291241
 40
3.0
  0
LINE
  8
APS_GEOMETRY
 10
-5926.558678
 11
-5922.087152
 20
-5603.207245
 21
-5603.207245
  0
ARC
  8
APS_GEOMETRY
 10
-5922.087152
 20
-5591.207245
 40
12.0
 50
270.0
 51
0.0
  0
LINE
  8
APS_GEOMETRY
 10
-5910.087152
 11
-5910.087152
 20
-5591.207245
 21
-5580.145275
  0
ARC
  8
APS_GEOMETRY
 10
-5911.087152
 20
-5580.145274
 40
1.0
 50
359.999943
 51
90.321832
  0
LINE
  8
APS_GEOMETRY
 10
-5911.092769
 11
-5931.098369
 20
-5579.14529
 21
-5579.257678
  0
ARC
  8
APS_GEOMETRY
 10
-5931.081516
 20
-5582.257631
 40
3.0
 50
90.32187
 51
179.963924
  0
LINE
  8
APS_GEOMETRY
 10
-5934.081515
 11
-5934.094083
 20
-5582.255742
 21
-5602.206615
  0
ARC
  8
APS_GEOMETRY
 10
-5933.094083
 20
-5602.207245
 40
1.0
 50
179.963904
 51
270.000044
  0
LINE
  8
APS_GEOMETRY
 10
-5933.094082
 11
-5928.510179
 20
-5603.207245
 21
-5603.207245
  0
LINE
  8
APS_GEOMETRY
 10
-5819.305013
 11
-5831.605627
 20
-5577.792743
 21
-5577.792743
  0
ARC
  8
APS_GEOMETRY
 10
-5831.605627
 20
-5580.792743
 40
3.0
 50
89.999994
 51
179.946753
  0
LINE
  8
APS_GEOMETRY
 10
-5834.605626
 11
-5834.629043
 20
-5580.789955
 21
-5605.988021
  0
ARC
  8
APS_GEOMETRY
 10
-5831.629044
 20
-5605.990808
 40
3.0
 50
179.946772
 51
270.028188
  0
LINE
  8
APS_GEOMETRY
 10
-5831.627568
 11
-5806.290404
 20
-5608.990808
 21
-5608.97837
  0
ARC
  8
APS_GEOMETRY
 10
-5806.291877
 20
-5605.97837
 40
3.0
 50
270.028132
 51
0.000021
  0
LINE
  8
APS_GEOMETRY
 10
-5803.291877
 11
-5803.291877
 20
-5605.978369
 21
-5579.792743
  0
ARC
  8
APS_GEOMETRY
 10
-5805.291877
 20
-5579.792743
 40
2.0
 50
0.0
 51
90.0
  0
LINE
  8
APS_GEOMETRY
 10
-5805.291877
 11
-5817.497562
 20
-5577.792743
 21
-5577.792743
  0
ARC
  8
APS_GEOMETRY
 10
-5723.312904
 20
-5579.342787
 40
1.0
 50
114.43351
 51
182.491898
  0
LINE
  8
APS_GEOMETRY
 10
-5724.311958
 11
-5724.268522
 20
-5579.386265
 21
-5580.51116
  0
LINE
  8
APS_GEOMETRY
 10
-5724.268522
 11
-5726.298483
 20
-5580.51116
 21
-5580.51116
  0
ARC
  8
APS_GEOMETRY
 10
-5726.298483
 20
-5583.51116
 40
3.0
 50
90.0
 51
110.563445
  0
ARC
  8
APS_GEOMETRY
 10
-5723.312902
 20
-5591.469571
 40
11.5
 50
110.563466
 51
267.508668
  0
LINE
  8
APS_GEOMETRY
 10
-5723.812787
 11
-5722.813023
 20
-5602.958701
 21
-5602.958702
  0
ARC
  8
APS_GEOMETRY
 10
-5723.312911
 20
-5591.469572
 40
11.5
 50
272.491345
 51
69.436524
  0
ARC
  8
APS_GEOMETRY
 10
-5720.327332
 20
-5583.51116
 40
3.0
 50
69.436474
 51
89.999942
  0
LINE
  8
APS_GEOMETRY
 10
-5720.327329
 11
-5722.357288
 20
-5580.51116
 21
-5580.51116
  0
LINE
  8
APS_GEOMETRY
 10
-5722.357288
 11
-5722.31385
 20
-5580.51116
 21
-5579.386265
  0
ARC
  8
APS_GEOMETRY
 10
-5723.312904
 20
-5579.342787
 40
1.0
 50
357.508102
 51
62.345934
  0
ARC
  8
APS_GEOMETRY
 10
-5808.135466
 20
-5600.162179
 40
0.462963
 50
298.115655
 51
92.426282
  0
ARC
  8
APS_GEOMETRY
 10
-5806.359202
 20
-5600.15155
 40
1.851852
 50
114.948978
 51
165.87512
  0
ARC
  8
APS_GEOMETRY
 10
-5807.023163
 20
-5598.724362
 40
0.277778
 50
28.115688
 51
114.949115
  0
ARC
  8
APS_GEOMETRY
 10
-5806.369831
 20
-5598.375286
 40
0.462963
 50
208.115669
 51
332.569912
  0
ARC
  8
APS_GEOMETRY
 10
-5805.712368
 20
-5598.716519
 40
0.277778
 50
65.736756
 51
152.570121
  0
ARC
  8
APS_GEOMETRY
 10
-5806.359202
 20
-5600.15155
 40
1.851852
 50
24.948939
 51
65.736754
  0
ARC
  8
APS_GEOMETRY
 10
-5804.932014
 20
-5599.487589
 40
0.277778
 50
298.115788
 51
24.948848
  0
ARC
  8
APS_GEOMETRY
 10
-5804.582939
 20
-5600.140922
 40
0.462963
 50
118.115407
 51
242.570035
  0
ARC
  8
APS_GEOMETRY
 10
-5804.924171
 20
-5600.798385
 40
0.277778
 50
335.736845
 51
62.570208
  0
ARC
  8
APS_GEOMETRY
 10
-5806.359202
 20
-5600.151551
 40
1.851852
 50
294.948959
 51
335.736734
  0
ARC
  8
APS_GEOMETRY
 10
-5805.695241
 20
-5601.578738
 40
0.277778
 50
208.115775
 51
294.949086
  0
ARC
  8
APS_GEOMETRY
 10
-5806.348573
 20
-5601.927815
 40
0.462963
 50
28.115669
 51
152.569912
  0
ARC
  8
APS_GEOMETRY
 10
-5807.006036
 20
-5601.586582
 40
0.277778
 50
245.736566
 51
332.570121
  0
ARC
  8
APS_GEOMETRY
 10
-5806.359202
 20
-5600.151551
 40
1.851852
 50
204.948939
 51
245.736726
  0
ARC
  8
APS_GEOMETRY
 10
-5807.78639
 20
-5600.815511
 40
0.277778
 50
118.115576
 51
204.948964
  0
ARC
  8
APS_GEOMETRY
 10
-5827.680469
 20
-5580.547693
 40
0.462963
 50
298.115655
 51
62.570033
  0
ARC
  8
APS_GEOMETRY
 10
-5827.339237
 20
-5579.89023
 40
0.277778
 50
155.736946
 51
242.570188
  0
ARC
  8
APS_GEOMETRY
 10
-5825.904206
 20
-5580.537064
 40
1.851852
 50
114.948939
 51
155.736769
  0
ARC
  8
APS_GEOMETRY
 10
-5826.568166
 20
-5579.109876
 40
0.277778
 50
28.115614
 51
114.94903
  0
ARC
  8
APS_GEOMETRY
 10
-5825.914834
 20
-5578.7608
 40
0.462963
 50
208.115662
 51
332.569841
  0
ARC
  8
APS_GEOMETRY
 10
-5825.257371
 20
-5579.102033
 40
0.277778
 50
65.736756
 51
152.570239
  0
ARC
  8
APS_GEOMETRY
 10
-5825.904205
 20
-5580.537064
 40
1.851852
 50
24.948939
 51
65.736754
  0
ARC
  8
APS_GEOMETRY
 10
-5824.477017
 20
-5579.873103
 40
0.277778
 50
298.115788
 51
24.948848
  0
ARC
  8
APS_GEOMETRY
 10
-5824.127942
 20
-5580.526436
 40
0.462963
 50
118.115407
 51
242.570035
  0
ARC
  8
APS_GEOMETRY
 10
-5824.469174
 20
-5581.183899
 40
0.277778
 50
335.736845
 51
62.570208
  0
ARC
  8
APS_GEOMETRY
 10
-5825.904205
 20
-5580.537065
 40
1.851852
 50
294.948959
 51
335.736734
  0
ARC
  8
APS_GEOMETRY
 10
-5825.240244
 20
-5581.964252
 40
0.277778
 50
208.115775
 51
294.949086
  0
ARC
  8
APS_GEOMETRY
 10
-5825.893576
 20
-5582.313329
 40
0.462963
 50
28.115669
 51
152.569912
  0
ARC
  8
APS_GEOMETRY
 10
-5826.551039
 20
-5581.972096
 40
0.277778
 50
245.736566
 51
332.570121
  0
ARC
  8
APS_GEOMETRY
 10
-5825.904205
 20
-5580.537065
 40
1.851852
 50
204.948939
 51
245.736726
  0
ARC
  8
APS_GEOMETRY
 10
-5827.331393
 20
-5581.201025
 40
0.277778
 50
118.115576
 51
204.948964
  0
ARC
  8
APS_GEOMETRY
 10
-5657.947724
 20
-5831.215108
 40
6.078778
 50
31.026839
 51
40.045456
  0
ARC
  8
APS_GEOMETRY
 10
-5655.849801
 20
-5829.350522
 40
3.274
 50
38.687117
 51
141.311861
  0
ARC
  8
APS_GEOMETRY
 10
-5653.67513
 20
-5831.1373
 40
6.088445
 50
140.97927
 51
219.021872
  0
ARC
  8
APS_GEOMETRY
 10
-5655.849707
 20
-5832.924195
 40
3.274
 50
218.687657
 51
321.312681
  0
ARC
  8
APS_GEOMETRY
 10
-5657.985191
 20
-5831.400488
 40
5.895111
 50
322.726662
 51
335.345965
  0
LINE
  8
APS_GEOMETRY
 10
-5642.104851
 11
-5637.327073
 20
-5831.333442
 21
-5831.333443
  0
ARC
  8
APS_GEOMETRY
 10
-5637.327073
 20
-5828.777887
 40
2.555556
 50
270.0
 51
90.0
  0
LINE
  8
APS_GEOMETRY
 10
-5637.327073
 11
-5642.104851
 20
-5826.222331
 21
-5826.222331
  0
LINE
  8
APS_GEOMETRY
 10
-5642.104851
 11
-5642.104851
 20
-5826.222331
 21
-5836.222331
  0
ARC
  8
APS_GEOMETRY
 10
-5629.873184
 20
-5829.485442
 40
3.263111
 50
38.7145
 51
90.1655
  0
LINE
  8
APS_GEOMETRY
 10
-5629.88261
 11
-5632.771517
 20
-5826.222345
 21
-5826.222331
  0
LINE
  8
APS_GEOMETRY
 10
-5632.771517
 11
-5632.771517
 20
-5826.222331
 21
-5836.222331
  0
LINE
  8
APS_GEOMETRY
 10
-5632.771517
 11
-5629.882628
 20
-5836.222331
 21
-5836.222331
  0
ARC
  8
APS_GEOMETRY
 10
-5629.873195
 20
-5832.959234
 40
3.263111
 50
269.834364
 51
321.285783
  0
ARC
  8
APS_GEOMETRY
 10
-5631.988591
 20
-5831.222331
 40
6.000111
 50
320.978146
 51
39.021845
  0
LINE
  8
APS_GEOMETRY
 10
-5913.789639
 11
-5909.011861
 20
-5830.891741
 21
-5830.891741
  0
ARC
  8
APS_GEOMETRY
 10
-5909.011861
 20
-5828.336185
 40
2.555556
 50
270.0
 51
90.0
  0
LINE
  8
APS_GEOMETRY
 10
-5909.011861
 11
-5913.789639
 20
-5825.780629
 21
-5825.780629
  0
LINE
  8
APS_GEOMETRY
 10
-5913.789639
 11
-5913.789639
 20
-5825.780629
 21
-5835.78063
  0
ARC
  8
APS_GEOMETRY
 10
-5903.760554
 20
-5830.706872
 40
6.078778
 50
31.026839
 51
40.045456
  0
ARC
  8
APS_GEOMETRY
 10
-5901.662632
 20
-5828.842284
 40
3.274
 50
38.687081
 51
141.311868
  0
ARC
  8
APS_GEOMETRY
 10
-5899.487978
 20
-5830.629083
 40
6.088445
 50
140.979025
 51
219.02174
  0
ARC
  8
APS_GEOMETRY
 10
-5901.672016
 20
-5832.421584
 40
3.263111
 50
218.714417
 51
270.166451
  0
ARC
  8
APS_GEOMETRY
 10
-5901.670019
 20
-5832.2828
 40
3.401889
 50
270.126024
 51
341.693489
  0
LINE
  8
APS_GEOMETRY
 10
-5898.4403
 11
-5898.440352
 20
-5833.351335
 21
-5830.795801
  0
LINE
  8
APS_GEOMETRY
 10
-5898.440352
 11
-5900.995908
 20
-5830.795801
 21
-5830.795801
  0
ARC
  8
APS_GEOMETRY
 10
-5876.598559
 20
-5829.714111
 40
4.110445
 50
42.9037
 51
122.5462
  0
ARC
  8
APS_GEOMETRY
 10
-5877.65369
 20
-5828.008883
 40
2.105556
 50
123.306695
 51
253.425601
  0
LINE
  8
APS_GEOMETRY
 10
-5878.254321
 11
-5874.921003
 20
-5830.026953
 21
-5831.138111
  0
ARC
  8
APS_GEOMETRY
 10
-5875.599685
 20
-5833.29112
 40
2.257445
 50
299.837941
 51
72.503864
  0
ARC
  8
APS_GEOMETRY
 10
-5876.643067
 20
-5831.492757
 40
4.336556
 50
240.022499
 51
299.973958
  0
ARC
  8
APS_GEOMETRY
 10
-5877.624162
 20
-5833.174166
 40
2.389889
 50
209.759308
 51
240.255363
  0
ARC
  8
APS_GEOMETRY
 10
-5850.653938
 20
-5832.471492
 40
3.274
 50
218.6887
 51
321.3113
  0
ARC
  8
APS_GEOMETRY
 10
-5852.828551
 20
-5830.684642
 40
6.088445
 50
320.978104
 51
39.020726
  0
ARC
  8
APS_GEOMETRY
 10
-5850.65388
 20
-5828.897864
 40
3.274
 50
38.688141
 51
141.312937
  0
ARC
  8
APS_GEOMETRY
 10
-5848.479266
 20
-5830.684714
 40
6.088445
 50
140.978981
 51
219.021021
  0
LINE
  8
APS_GEOMETRY
 10
-5845.764461
 11
-5840.986683
 20
-5830.891741
 21
-5830.891741
  0
ARC
  8
APS_GEOMETRY
 10
-5840.986683
 20
-5828.336185
 40
2.555556
 50
270.0
 51
90.0
  0
LINE
  8
APS_GEOMETRY
 10
-5840.986683
 11
-5845.764461
 20
-5825.780629
 21
-5825.780629
  0
LINE
  8
APS_GEOMETRY
 10
-5845.764461
 11
-5845.764461
 20
-5825.780629
 21
-5835.78063
  0
ARC
  8
APS_GEOMETRY
 10
-5804.034907
 20
-5828.326788
 40
2.380778
 50
118.020715
 51
169.471695
  0
ARC
  8
APS_GEOMETRY
 10
-5803.264554
 20
-5829.735407
 40
3.986222
 50
61.713821
 51
118.283675
  0
ARC
  8
APS_GEOMETRY
 10
-5802.605271
 20
-5828.336251
 40
2.443111
 50
300.22001
 51
59.779437
  0
LINE
  8
APS_GEOMETRY
 10
-5801.3756
 11
-5805.153352
 20
-5830.447341
 21
-5832.780677
  0
ARC
  8
APS_GEOMETRY
 10
-5803.295241
 20
-5835.77592
 40
3.524778
 50
121.813558
 51
180.076552
  0
LINE
  8
APS_GEOMETRY
 10
-5806.820016
 11
-5800.153352
 20
-5835.780629
 21
-5835.780677
  0
ARC
  8
APS_GEOMETRY
 10
-5759.421681
 20
-5829.043741
 40
3.263111
 50
38.7145
 51
90.1655
  0
LINE
  8
APS_GEOMETRY
 10
-5759.431107
 11
-5762.320014
 20
-5825.780644
 21
-5825.780629
  0
LINE
  8
APS_GEOMETRY
 10
-5762.320014
 11
-5762.320014
 20
-5825.780629
 21
-5835.78063
  0
LINE
  8
APS_GEOMETRY
 10
-5762.320014
 11
-5759.431125
 20
-5835.78063
 21
-5835.78063
  0
ARC
  8
APS_GEOMETRY
 10
-5759.421692
 20
-5832.517533
 40
3.263111
 50
269.834364
 51
321.285805
  0
ARC
  8
APS_GEOMETRY
 10
-5761.537088
 20
-5830.78063
 40
6.000111
 50
320.978157
 51
39.021845
  0
ARC
  8
APS_GEOMETRY
 10
-5729.307281
 20
-5830.998855
 40
15.5402
 50
159.4697
 51
200.5303
  0
ARC
  8
APS_GEOMETRY
 10
-5738.181063
 20
-5832.09643
 40
2.6159
 50
89.6195
 51
170.8532
  0
LINE
  8
APS_GEOMETRY
 10
-5737.436622
 11
-5732.636611
 20
-5832.125507
 21
-5832.125522
  0
ARC
  8
APS_GEOMETRY
 10
-5735.602124
 20
-5832.016935
 40
2.9675
 50
357.902951
 51
30.171303
  0
ARC
  8
APS_GEOMETRY
 10
-5734.940222
 20
-5831.622608
 40
2.1971
 50
29.956345
 51
89.90621
  0
ARC
  8
APS_GEOMETRY
 10
-5734.932207
 20
-5831.778807
 40
2.3533
 50
90.107581
 51
153.411208
  0
ARC
  8
APS_GEOMETRY
 10
-5733.43923
 20
-5832.525522
 40
4.0226
 50
153.418174
 51
206.581022
  0
ARC
  8
APS_GEOMETRY
 10
-5734.932228
 20
-5833.272194
 40
2.3533
 50
206.588577
 51
269.892703
  0
ARC
  8
APS_GEOMETRY
 10
-5734.946122
 20
-5833.052807
 40
2.5727
 50
270.211284
 51
325.080703
  0
ARC
  8
APS_GEOMETRY
 10
-5713.551376
 20
-5828.326789
 40
2.380778
 50
118.02067
 51
169.471679
  0
ARC
  8
APS_GEOMETRY
 10
-5712.781021
 20
-5829.735407
 40
3.986222
 50
61.713829
 51
118.283673
  0
ARC
  8
APS_GEOMETRY
 10
-5712.121739
 20
-5828.336251
 40
2.443111
 50
300.22001
 51
59.779437
  0
LINE
  8
APS_GEOMETRY
 10
-5710.892068
 11
-5714.66982
 20
-5830.447341
 21
-5832.780677
  0
ARC
  8
APS_GEOMETRY
 10
-5712.811709
 20
-5835.77592
 40
3.524778
 50
121.813558
 51
180.076552
  0
LINE
  8
APS_GEOMETRY
 10
-5716.336484
 11
-5709.66982
 20
-5835.780629
 21
-5835.780677
  0
ARC
  8
APS_GEOMETRY
 10
-5722.017341
 20
-5830.836247
 40
15.6828
 50
339.4697
 51
20.5303
  0
ARC
  8
APS_GEOMETRY
 10
-5798.572143
 20
-5799.796747
 40
2.380778
 50
118.02067
 51
169.471679
  0
ARC
  8
APS_GEOMETRY
 10
-5797.801788
 20
-5801.205365
 40
3.986222
 50
61.713829
 51
118.283673
  0
ARC
  8
APS_GEOMETRY
 10
-5797.142506
 20
-5799.806209
 40
2.443111
 50
300.22001
 51
59.779437
  0
LINE
  8
APS_GEOMETRY
 10
-5795.912835
 11
-5799.690587
 20
-5801.917299
 21
-5804.250635
  0
ARC
  8
APS_GEOMETRY
 10
-5797.832476
 20
-5807.245878
 40
3.524778
 50
121.813558
 51
180.076552
  0
LINE
  8
APS_GEOMETRY
 10
-5801.357251
 11
-5794.690587
 20
-5807.250587
 21
-5807.250635
  0
ARC
  8
APS_GEOMETRY
 10
-5789.512848
 20
-5804.100607
 40
3.274
 50
218.687092
 51
321.311843
  0
ARC
  8
APS_GEOMETRY
 10
-5791.687519
 20
-5802.313829
 40
6.088445
 50
320.979265
 51
39.021872
  0
ARC
  8
APS_GEOMETRY
 10
-5789.512923
 20
-5800.526958
 40
3.274
 50
38.688192
 51
141.311685
  0
ARC
  8
APS_GEOMETRY
 10
-5790.01192
 20
-5800.147109
 40
2.647111
 50
140.977908
 51
219.022305
  0
ARC
  8
APS_GEOMETRY
 10
-5789.346208
 20
-5799.633796
 40
3.487556
 50
218.687902
 51
321.311968
  0
ARC
  8
APS_GEOMETRY
 10
-5789.111461
 20
-5799.789648
 40
3.207
 50
320.86382
 51
349.585929
  0
ARC
  8
APS_GEOMETRY
 10
-5780.511096
 20
-5798.124438
 40
4.332889
 50
295.9876
 51
313.9964
  0
ARC
  8
APS_GEOMETRY
 10
-5778.999923
 20
-5799.685943
 40
2.159889
 50
313.930854
 51
46.072386
  0
ARC
  8
APS_GEOMETRY
 10
-5779.945963
 20
-5801.062069
 40
3.817111
 50
50.178685
 51
129.819557
  0
ARC
  8
APS_GEOMETRY
 10
-5781.124406
 20
-5799.630254
 40
1.962778
 50
130.16323
 51
229.839307
  0
ARC
  8
APS_GEOMETRY
 10
-5780.202426
 20
-5798.529315
 40
3.398778
 50
229.930684
 51
276.210473
  0
ARC
  8
APS_GEOMETRY
 10
-5779.466894
 20
-5805.28696
 40
3.398778
 50
49.934493
 51
96.213272
  0
ARC
  8
APS_GEOMETRY
 10
-5778.67743
 20
-5804.574772
 40
2.350111
 50
306.509522
 51
53.490785
  0
ARC
  8
APS_GEOMETRY
 10
-5779.945853
 20
-5802.872899
 40
4.472667
 50
233.400672
 51
306.598743
  0
ARC
  8
APS_GEOMETRY
 10
-5781.214297
 20
-5804.574756
 40
2.350111
 50
126.510135
 51
233.490009
  0
ARC
  8
APS_GEOMETRY
 10
-5778.321091
 20
-5808.390595
 40
7.138667
 50
112.535074
 51
126.952614
  0
ARC
  8
APS_GEOMETRY
 10
-5406.459074
 20
-5645.57662
 40
11.9
 50
320.324537
 51
339.675463
  0
LINE
  8
APS_GEOMETRY
 10
-5395.299965
 11
-5394.42243
 20
-5649.709934
 21
-5650.216578
  0
ARC
  8
APS_GEOMETRY
 10
-5406.459074
 20
-5645.57662
 40
12.9
 50
338.919046
 51
81.08096
  0
LINE
  8
APS_GEOMETRY
 10
-5404.459074
 11
-5404.459074
 20
-5632.832602
 21
-5633.845891
  0
ARC
  8
APS_GEOMETRY
 10
-5406.459074
 20
-5645.57662
 40
11.9
 50
80.324539
 51
99.675467
  0
LINE
  8
APS_GEOMETRY
 10
-5408.459075
 11
-5408.459074
 20
-5633.845891
 21
-5632.832601
  0
ARC
  8
APS_GEOMETRY
 10
-5406.459074
 20
-5645.576619
 40
12.9
 50
98.919045
 51
201.080959
  0
LINE
  8
APS_GEOMETRY
 10
-5418.495717
 11
-5417.618183
 20
-5650.216578
 21
-5649.709933
  0
ARC
  8
APS_GEOMETRY
 10
-5406.459073
 20
-5645.576621
 40
11.9
 50
200.324531
 51
219.675459
  0
LINE
  8
APS_GEOMETRY
 10
-5415.618183
 11
-5416.495717
 20
-5653.174035
 21
-5653.68068
  0
ARC
  8
APS_GEOMETRY
 10
-5406.459074
 20
-5645.576619
 40
12.9
 50
218.919049
 51
236.385168
  0
ARC
  8
APS_GEOMETRY
 10
-5415.261428
 20
-5658.817789
 40
3.0
 50
359.999998
 51
56.385162
  0
LINE
  8
APS_GEOMETRY
 10
-5412.261428
 11
-5412.261428
 20
-5658.817789
 21
-5659.82662
  0
ARC
  8
APS_GEOMETRY
 10
-5415.261428
 20
-5659.82662
 40
3.0
 50
270.0
 51
0.0
  0
LINE
  8
APS_GEOMETRY
 10
-5415.261428
 11
-5423.709074
 20
-5662.82662
 21
-5662.82662
  0
LINE
  8
APS_GEOMETRY
 10
-5423.709074
 11
-5423.709074
 20
-5662.82662
 21
-5659.82662
  0
LINE
  8
APS_GEOMETRY
 10
-5423.709074
 11
-5425.709074
 20
-5659.82662
 21
-5659.82662
  0
LINE
  8
APS_GEOMETRY
 10
-5425.709074
 11
-5425.709074
 20
-5659.82662
 21
-5656.82662
  0
LINE
  8
APS_GEOMETRY
 10
-5425.709074
 11
-5423.709074
 20
-5656.82662
 21
-5656.82662
  0
LINE
  8
APS_GEOMETRY
 10
-5423.709074
 11
-5423.709074
 20
-5656.82662
 21
-5634.32662
  0
LINE
  8
APS_GEOMETRY
 10
-5423.709074
 11
-5425.709074
 20
-5634.32662
 21
-5634.32662
  0
LINE
  8
APS_GEOMETRY
 10
-5425.709074
 11
-5425.709074
 20
-5634.32662
 21
-5631.32662
  0
LINE
  8
APS_GEOMETRY
 10
-5425.709074
 11
-5423.709074
 20
-5631.32662
 21
-5631.32662
  0
LINE
  8
APS_GEOMETRY
 10
-5423.709074
 11
-5423.709074
 20
-5631.32662
 21
-5628.32662
  0
LINE
  8
APS_GEOMETRY
 10
-5423.709074
 11
-5420.709074
 20
-5628.32662
 21
-5628.32662
  0
LINE
  8
APS_GEOMETRY
 10
-5420.709074
 11
-5420.709074
 20
-5628.32662
 21
-5626.32662
  0
LINE
  8
APS_GEOMETRY
 10
-5420.709074
 11
-5417.709074
 20
-5626.32662
 21
-5626.32662
  0
LINE
  8
APS_GEOMETRY
 10
-5417.709074
 11
-5417.709074
 20
-5626.32662
 21
-5628.32662
  0
LINE
  8
APS_GEOMETRY
 10
-5417.709074
 11
-5395.209074
 20
-5628.32662
 21
-5628.32662
  0
LINE
  8
APS_GEOMETRY
 10
-5395.209074
 11
-5395.209074
 20
-5628.32662
 21
-5626.32662
  0
LINE
  8
APS_GEOMETRY
 10
-5395.209074
 11
-5392.209074
 20
-5626.32662
 21
-5626.32662
  0
LINE
  8
APS_GEOMETRY
 10
-5392.209074
 11
-5392.209074
 20
-5626.32662
 21
-5628.32662
  0
LINE
  8
APS_GEOMETRY
 10
-5392.209074
 11
-5389.209074
 20
-5628.32662
 21
-5628.32662
  0
LINE
  8
APS_GEOMETRY
 10
-5389.209074
 11
-5389.209074
 20
-5628.32662
 21
-5631.32662
  0
LINE
  8
APS_GEOMETRY
 10
-5389.209074
 11
-5387.209074
 20
-5631.32662
 21
-5631.32662
  0
LINE
  8
APS_GEOMETRY
 10
-5387.209074
 11
-5387.209074
 20
-5631.32662
 21
-5634.32662
  0
LINE
  8
APS_GEOMETRY
 10
-5387.209074
 11
-5389.209074
 20
-5634.32662
 21
-5634.32662
  0
LINE
  8
APS_GEOMETRY
 10
-5389.209074
 11
-5389.209074
 20
-5634.32662
 21
-5656.82662
  0
LINE
  8
APS_GEOMETRY
 10
-5389.209074
 11
-5387.209074
 20
-5656.82662
 21
-5656.82662
  0
LINE
  8
APS_GEOMETRY
 10
-5387.209074
 11
-5387.209074
 20
-5656.82662
 21
-5659.82662
  0
LINE
  8
APS_GEOMETRY
 10
-5387.209074
 11
-5389.209074
 20
-5659.82662
 21
-5659.82662
  0
LINE
  8
APS_GEOMETRY
 10
-5389.209074
 11
-5389.209074
 20
-5659.82662
 21
-5662.82662
  0
LINE
  8
APS_GEOMETRY
 10
-5389.209074
 11
-5397.65672
 20
-5662.82662
 21
-5662.82662
  0
ARC
  8
APS_GEOMETRY
 10
-5397.65672
 20
-5659.82662
 40
3.0
 50
180.0
 51
270.0
  0
LINE
  8
APS_GEOMETRY
 10
-5400.65672
 11
-5400.65672
 20
-5659.82662
 21
-5658.817789
  0
ARC
  8
APS_GEOMETRY
 10
-5397.65672
 20
-5658.817789
 40
3.0
 50
123.614833
 51
180.0
  0
ARC
  8
APS_GEOMETRY
 10
-5406.459073
 20
-5645.576619
 40
12.9
 50
303.614829
 51
321.080953
  0
LINE
  8
APS_GEOMETRY
 10
-5396.42243
 11
-5397.299965
 20
-5653.68068
 21
-5653.174035
  0
ARC
  8
APS_GEOMETRY
 10
-5551.127197
 20
-5692.065797
 40
3.0
 50
180.0
 51
270.0
  0
LINE
  8
APS_GEOMETRY
 10
-5551.127197
 11
-5519.627237
 20
-5695.065797
 21
-5695.065797
  0
LINE
  8
APS_GEOMETRY
 10
-5519.627237
 11
-5519.627237
 20
-5695.065797
 21
-5668.065846
  0
LINE
  8
APS_GEOMETRY
 10
-5519.627237
 11
-5516.627197
 20
-5668.065846
 21
-5668.065846
  0
LINE
  8
APS_GEOMETRY
 10
-5516.627197
 11
-5516.627197
 20
-5668.065846
 21
-5663.065846
  0
LINE
  8
APS_GEOMETRY
 10
-5516.627197
 11
-5519.627237
 20
-5663.065846
 21
-5663.065846
  0
LINE
  8
APS_GEOMETRY
 10
-5519.627237
 11
-5519.627237
 20
-5663.065846
 21
-5635.865846
  0
LINE
  8
APS_GEOMETRY
 10
-5519.627237
 11
-5516.627197
 20
-5635.865846
 21
-5635.865846
  0
LINE
  8
APS_GEOMETRY
 10
-5516.627197
 11
-5516.627197
 20
-5635.865846
 21
-5630.865846
  0
LINE
  8
APS_GEOMETRY
 10
-5516.627197
 11
-5519.627237
 20
-5630.865846
 21
-5630.865846
  0
LINE
  8
APS_GEOMETRY
 10
-5519.627237
 11
-5519.627237
 20
-5630.865846
 21
-5603.665846
  0
LINE
  8
APS_GEOMETRY
 10
-5519.627237
 11
-5516.627197
 20
-5603.665846
 21
-5603.665846
  0
LINE
  8
APS_GEOMETRY
 10
-5516.627197
 11
-5516.627197
 20
-5603.665846
 21
-5598.665846
  0
LINE
  8
APS_GEOMETRY
 10
-5516.627197
 11
-5519.627237
 20
-5598.665846
 21
-5598.665846
  0
LINE
  8
APS_GEOMETRY
 10
-5519.627237
 11
-5519.627237
 20
-5598.665846
 21
-5587.665846
  0
LINE
  8
APS_GEOMETRY
 10
-5519.627237
 11
-5551.127197
 20
-5587.665846
 21
-5587.665846
  0
ARC
  8
APS_GEOMETRY
 10
-5551.127197
 20
-5590.665846
 40
3.0
 50
90.0
 51
180.0
  0
LINE
  8
APS_GEOMETRY
 10
-5554.127197
 11
-5554.127197
 20
-5590.665846
 21
-5692.065797
  0
ARC
  8
APS_GEOMETRY
 10
-5430.683239
 20
-5691.688805
 40
3.0
 50
270.0
 51
0.0
  0
LINE
  8
APS_GEOMETRY
 10
-5427.683239
 11
-5427.683239
 20
-5691.688805
 21
-5590.288854
  0
ARC
  8
APS_GEOMETRY
 10
-5430.683239
 20
-5590.288854
 40
3.0
 50
0.0
 51
90.0
  0
LINE
  8
APS_GEOMETRY
 10
-5430.683239
 11
-5462.183199
 20
-5587.288854
 21
-5587.288854
  0
LINE
  8
APS_GEOMETRY
 10
-5462.183199
 11
-5462.183199
 20
-5587.288854
 21
-5598.288854
  0
LINE
  8
APS_GEOMETRY
 10
-5462.183199
 11
-5465.183239
 20
-5598.288854
 21
-5598.288854
  0
LINE
  8
APS_GEOMETRY
 10
-5465.183239
 11
-5465.183239
 20
-5598.288854
 21
-5603.288854
  0
LINE
  8
APS_GEOMETRY
 10
-5465.183239
 11
-5462.183199
 20
-5603.288854
 21
-5603.288854
  0
LINE
  8
APS_GEOMETRY
 10
-5462.183199
 11
-5462.183199
 20
-5603.288854
 21
-5630.488854
  0
LINE
  8
APS_GEOMETRY
 10
-5462.183199
 11
-5465.183239
 20
-5630.488854
 21
-5630.488854
  0
LINE
  8
APS_GEOMETRY
 10
-5465.183239
 11
-5465.183239
 20
-5630.488854
 21
-5635.488854
  0
LINE
  8
APS_GEOMETRY
 10
-5465.183239
 11
-5462.183199
 20
-5635.488854
 21
-5635.488854
  0
LINE
  8
APS_GEOMETRY
 10
-5462.183199
 11
-5462.183199
 20
-5635.488854
 21
-5662.688854
  0
LINE
  8
APS_GEOMETRY
 10
-5462.183199
 11
-5465.183239
 20
-5662.688854
 21
-5662.688854
  0
LINE
  8
APS_GEOMETRY
 10
-5465.183239
 11
-5465.183239
 20
-5662.688854
 21
-5667.688854
  0
LINE
  8
APS_GEOMETRY
 10
-5465.183239
 11
-5462.183199
 20
-5667.688854
 21
-5667.688854
  0
LINE
  8
APS_GEOMETRY
 10
-5462.183199
 11
-5462.183199
 20
-5667.688854
 21
-5694.688805
  0
LINE
  8
APS_GEOMETRY
 10
-5462.183199
 11
-5430.683239
 20
-5694.688805
 21
-5694.688805
  0
ARC
  8
APS_GEOMETRY
 10
-5406.711528
 20
-5605.615498
 40
11.9
 50
320.324537
 51
339.675463
  0
LINE
  8
APS_GEOMETRY
 10
-5395.552419
 11
-5394.674884
 20
-5609.748812
 21
-5610.255456
  0
ARC
  8
APS_GEOMETRY
 10
-5406.711528
 20
-5605.615498
 40
12.9
 50
338.919046
 51
81.08096
  0
LINE
  8
APS_GEOMETRY
 10
-5404.711528
 11
-5404.711528
 20
-5592.87148
 21
-5593.884769
  0
ARC
  8
APS_GEOMETRY
 10
-5406.711528
 20
-5605.615498
 40
11.9
 50
80.324539
 51
99.675467
  0
LINE
  8
APS_GEOMETRY
 10
-5408.711529
 11
-5408.711528
 20
-5593.884769
 21
-5592.871479
  0
ARC
  8
APS_GEOMETRY
 10
-5406.711528
 20
-5605.615497
 40
12.9
 50
98.919045
 51
201.080959
  0
LINE
  8
APS_GEOMETRY
 10
-5418.748171
 11
-5417.870637
 20
-5610.255456
 21
-5609.748811
  0
ARC
  8
APS_GEOMETRY
 10
-5406.711527
 20
-5605.615499
 40
11.9
 50
200.324531
 51
219.675459
  0
LINE
  8
APS_GEOMETRY
 10
-5415.870637
 11
-5416.748171
 20
-5613.212913
 21
-5613.719558
  0
ARC
  8
APS_GEOMETRY
 10
-5406.711528
 20
-5605.615497
 40
12.9
 50
218.919049
 51
236.385168
  0
ARC
  8
APS_GEOMETRY
 10
-5415.513882
 20
-5618.856667
 40
3.0
 50
359.999998
 51
56.385162
  0
LINE
  8
APS_GEOMETRY
 10
-5412.513882
 11
-5412.513882
 20
-5618.856667
 21
-5619.865498
  0
ARC
  8
APS_GEOMETRY
 10
-5415.513882
 20
-5619.865498
 40
3.0
 50
270.0
 51
0.0
  0
LINE
  8
APS_GEOMETRY
 10
-5415.513882
 11
-5423.961528
 20
-5622.865498
 21
-5622.865498
  0
LINE
  8
APS_GEOMETRY
 10
-5423.961528
 11
-5423.961528
 20
-5622.865498
 21
-5619.865498
  0
LINE
  8
APS_GEOMETRY
 10
-5423.961528
 11
-5425.961528
 20
-5619.865498
 21
-5619.865498
  0
LINE
  8
APS_GEOMETRY
 10
-5425.961528
 11
-5425.961528
 20
-5619.865498
 21
-5616.865498
  0
LINE
  8
APS_GEOMETRY
 10
-5425.961528
 11
-5423.961528
 20
-5616.865498
 21
-5616.865498
  0
LINE
  8
APS_GEOMETRY
 10
-5423.961528
 11
-5423.961528
 20
-5616.865498
 21
-5594.365498
  0
LINE
  8
APS_GEOMETRY
 10
-5423.961528
 11
-5425.961528
 20
-5594.365498
 21
-5594.365498
  0
LINE
  8
APS_GEOMETRY
 10
-5425.961528
 11
-5425.961528
 20
-5594.365498
 21
-5591.365498
  0
LINE
  8
APS_GEOMETRY
 10
-5425.961528
 11
-5423.961528
 20
-5591.365498
 21
-5591.365498
  0
LINE
  8
APS_GEOMETRY
 10
-5423.961528
 11
-5423.961528
 20
-5591.365498
 21
-5588.365498
  0
LINE
  8
APS_GEOMETRY
 10
-5423.961528
 11
-5420.961528
 20
-5588.365498
 21
-5588.365498
  0
LINE
  8
APS_GEOMETRY
 10
-5420.961528
 11
-5420.961528
 20
-5588.365498
 21
-5586.365498
  0
LINE
  8
APS_GEOMETRY
 10
-5420.961528
 11
-5417.961528
 20
-5586.365498
 21
-5586.365498
  0
LINE
  8
APS_GEOMETRY
 10
-5417.961528
 11
-5417.961528
 20
-5586.365498
 21
-5588.365498
  0
LINE
  8
APS_GEOMETRY
 10
-5417.961528
 11
-5395.461528
 20
-5588.365498
 21
-5588.365498
  0
LINE
  8
APS_GEOMETRY
 10
-5395.461528
 11
-5395.461528
 20
-5588.365498
 21
-5586.365498
  0
LINE
  8
APS_GEOMETRY
 10
-5395.461528
 11
-5392.461528
 20
-5586.365498
 21
-5586.365498
  0
LINE
  8
APS_GEOMETRY
 10
-5392.461528
 11
-5392.461528
 20
-5586.365498
 21
-5588.365498
  0
LINE
  8
APS_GEOMETRY
 10
-5392.461528
 11
-5389.461528
 20
-5588.365498
 21
-5588.365498
  0
LINE
  8
APS_GEOMETRY
 10
-5389.461528
 11
-5389.461528
 20
-5588.365498
 21
-5591.365498
  0
LINE
  8
APS_GEOMETRY
 10
-5389.461528
 11
-5387.461528
 20
-5591.365498
 21
-5591.365498
  0
LINE
  8
APS_GEOMETRY
 10
-5387.461528
 11
-5387.461528
 20
-5591.365498
 21
-5594.365498
  0
LINE
  8
APS_GEOMETRY
 10
-5387.461528
 11
-5389.461528
 20
-5594.365498
 21
-5594.365498
  0
LINE
  8
APS_GEOMETRY
 10
-5389.461528
 11
-5389.461528
 20
-5594.365498
 21
-5616.865498
  0
LINE
  8
APS_GEOMETRY
 10
-5389.461528
 11
-5387.461528
 20
-5616.865498
 21
-5616.865498
  0
LINE
  8
APS_GEOMETRY
 10
-5387.461528
 11
-5387.461528
 20
-5616.865498
 21
-5619.865498
  0
LINE
  8
APS_GEOMETRY
 10
-5387.461528
 11
-5389.461528
 20
-5619.865498
 21
-5619.865498
  0
LINE
  8
APS_GEOMETRY
 10
-5389.461528
 11
-5389.461528
 20
-5619.865498
 21
-5622.865498
  0
LINE
  8
APS_GEOMETRY
 10
-5389.461528
 11
-5397.909174
 20
-5622.865498
 21
-5622.865498
  0
ARC
  8
APS_GEOMETRY
 10
-5397.909174
 20
-5619.865498
 40
3.0
 50
180.0
 51
270.0
  0
LINE
  8
APS_GEOMETRY
 10
-5400.909174
 11
-5400.909174
 20
-5619.865498
 21
-5618.856667
  0
ARC
  8
APS_GEOMETRY
 10
-5397.909174
 20
-5618.856667
 40
3.0
 50
123.614833
 51
180.0
  0
ARC
  8
APS_GEOMETRY
 10
-5406.711529
 20
-5605.615499
 40
12.9
 50
303.61484
 51
321.080961
  0
LINE
  8
APS_GEOMETRY
 10
-5396.674885
 11
-5397.552419
 20
-5613.719558
 21
-5613.212913
  0
ARC
  8
APS_GEOMETRY
 10
-5575.212856
 20
-5607.748964
 40
10.0
 50
180.0
 51
270.0
  0
LINE
  8
APS_GEOMETRY
 10
-5575.212856
 11
-5565.156519
 20
-5617.748964
 21
-5617.748964
  0
LINE
  8
APS_GEOMETRY
 10
-5565.156519
 11
-5565.263258
 20
-5617.748964
 21
-5598.748982
  0
ARC
  8
APS_GEOMETRY
 10
-5566.263242
 20
-5598.7546
 40
1.0
 50
0.321889
 51
89.963891
  0
LINE
  8
APS_GEOMETRY
 10
-5566.262612
 11
-5585.212856
 20
-5597.7546
 21
-5597.742663
  0
LINE
  8
APS_GEOMETRY
 10
-5585.212856
 11
-5585.212856
 20
-5597.742663
 21
-5607.748964
  0
ARC
  8
APS_GEOMETRY
 10
-5574.755668
 20
-5646.30947
 40
12.1
 50
180.0
 51
270.0
  0
LINE
  8
APS_GEOMETRY
 10
-5574.755668
 11
-5563.693698
 20
-5658.40947
 21
-5658.40947
  0
ARC
  8
APS_GEOMETRY
 10
-5563.693697
 20
-5657.30947
 40
1.1
 50
269.999948
 51
0.321834
  0
LINE
  8
APS_GEOMETRY
 10
-5562.593714
 11
-5562.706103
 20
-5657.303291
 21
-5637.297691
  0
ARC
  8
APS_GEOMETRY
 10
-5565.806054
 20
-5637.315106
 40
3.1
 50
0.321875
 51
89.963916
  0
LINE
  8
APS_GEOMETRY
 10
-5565.804102
 11
-5585.754975
 20
-5634.215107
 21
-5634.202539
  0
ARC
  8
APS_GEOMETRY
 10
-5585.755668
 20
-5635.302539
 40
1.1
 50
89.963904
 51
179.999936
  0
LINE
  8
APS_GEOMETRY
 10
-5586.855668
 11
-5586.855668
 20
-5635.302538
 21
-5646.30947
  0
ARC
  8
APS_GEOMETRY
 10
-5528.558649
 20
-5711.403004
 40
1.559056
 50
208.751948
 51
258.48402
  0
ARC
  8
APS_GEOMETRY
 10
-5528.228305
 20
-5709.973588
 40
3.025889
 50
257.758344
 51
286.48041
  0
ARC
  8
APS_GEOMETRY
 10
-5527.758796
 20
-5711.50859
 40
1.420833
 50
285.885188
 51
325.197078
  0
ARC
  8
APS_GEOMETRY
 10
-5527.747667
 20
-5711.49951
 40
1.416945
 50
324.638774
 51
31.268689
  0
ARC
  8
APS_GEOMETRY
 10
-5527.794863
 20
-5711.515798
 40
1.465778
 50
30.85532
 51
75.40237
  0
ARC
  8
APS_GEOMETRY
 10
-5528.092112
 20
-5712.70118
 40
2.687833
 50
75.638937
 51
104.361123
  0
ARC
  8
APS_GEOMETRY
 10
-5529.748167
 20
-5707.235008
 40
3.0285
 50
289.06808
 51
345.637891
  0
LINE
  8
APS_GEOMETRY
 10
-5526.814316
 11
-5529.869891
 20
-5707.986225
 21
-5707.986236
  0
LINE
  8
APS_GEOMETRY
 10
-5523.314694
 11
-5523.314656
 20
-5713.001961
 21
-5710.701944
  0
ARC
  8
APS_GEOMETRY
 10
-5524.160194
 20
-5710.697499
 40
0.84555
 50
359.698802
 51
90.305782
  0
ARC
  8
APS_GEOMETRY
 10
-5524.165844
 20
-5711.306361
 40
1.4544
 50
89.9552
 51
153.259818
  0
LINE
  8
APS_GEOMETRY
 10
-5521.164694
 11
-5521.164656
 20
-5713.001961
 21
-5710.701944
  0
ARC
  8
APS_GEOMETRY
 10
-5522.010194
 20
-5710.697499
 40
0.84555
 50
359.698802
 51
90.305782
  0
ARC
  8
APS_GEOMETRY
 10
-5522.015844
 20
-5711.306361
 40
1.4544
 50
89.9552
 51
153.259818
  0
LINE
  8
APS_GEOMETRY
 10
-5518.014634
 11
-5518.014596
 20
-5713.001961
 21
-5710.701944
  0
ARC
  8
APS_GEOMETRY
 10
-5518.860134
 20
-5710.697499
 40
0.84555
 50
359.698802
 51
90.305782
  0
ARC
  8
APS_GEOMETRY
 10
-5518.865784
 20
-5711.306361
 40
1.4544
 50
89.9552
 51
153.259818
  0
LINE
  8
APS_GEOMETRY
 10
-5515.864634
 11
-5515.864596
 20
-5713.001961
 21
-5710.701944
  0
ARC
  8
APS_GEOMETRY
 10
-5516.710134
 20
-5710.697499
 40
0.84555
 50
359.698802
 51
90.305782
  0
ARC
  8
APS_GEOMETRY
 10
-5516.715784
 20
-5711.306361
 40
1.4544
 50
89.9552
 51
153.259818
  0
ARC
  8
APS_GEOMETRY
 10
-5508.837627
 20
-5711.176527
 40
1.28635
 50
34.918935
 51
89.788286
  0
ARC
  8
APS_GEOMETRY
 10
-5508.830665
 20
-5711.066834
 40
1.17665
 50
90.107563
 51
153.411206
  0
ARC
  8
APS_GEOMETRY
 10
-5508.084177
 20
-5711.440192
 40
2.0113
 50
153.418143
 51
206.580988
  0
ARC
  8
APS_GEOMETRY
 10
-5508.830677
 20
-5711.813527
 40
1.17665
 50
206.588587
 51
269.892768
  0
ARC
  8
APS_GEOMETRY
 10
-5508.837623
 20
-5711.703834
 40
1.28635
 50
270.211306
 51
325.080683
  0
ARC
  8
APS_GEOMETRY
 10
-5505.999448
 20
-5711.237915
 40
1.28635
 50
34.918935
 51
89.788286
  0
ARC
  8
APS_GEOMETRY
 10
-5505.992486
 20
-5711.128222
 40
1.17665
 50
90.107563
 51
153.411206
  0
ARC
  8
APS_GEOMETRY
 10
-5505.245997
 20
-5711.501579
 40
2.0113
 50
153.418175
 51
206.58102
  0
ARC
  8
APS_GEOMETRY
 10
-5505.992497
 20
-5711.874915
 40
1.17665
 50
206.588587
 51
269.892719
  0
ARC
  8
APS_GEOMETRY
 10
-5505.999444
 20
-5711.765222
 40
1.28635
 50
270.211306
 51
325.080683
  0
ARC
  8
APS_GEOMETRY
 10
-5502.538958
 20
-5711.159861
 40
1.30795
 50
89.6195
 51
170.8532
  0
ARC
  8
APS_GEOMETRY
 10
-5493.230072
 20
-5711.237915
 40
1.28635
 50
34.918935
 51
89.788286
  0
ARC
  8
APS_GEOMETRY
 10
-5493.223109
 20
-5711.128222
 40
1.17665
 50
90.107612
 51
153.411206
  0
ARC
  8
APS_GEOMETRY
 10
-5492.476621
 20
-5711.50158
 40
2.0113
 50
153.418143
 51
206.580988
  0
ARC
  8
APS_GEOMETRY
 10
-5493.223121
 20
-5711.874915
 40
1.17665
 50
206.588587
 51
269.892768
  0
ARC
  8
APS_GEOMETRY
 10
-5493.230067
 20
-5711.765222
 40
1.28635
 50
270.211306
 51
325.080683
  0
LINE
  8
APS_GEOMETRY
 10
-5476.054034
 11
-5476.053997
 20
-5713.001961
 21
-5710.701944
  0
ARC
  8
APS_GEOMETRY
 10
-5476.899535
 20
-5710.697499
 40
0.84555
 50
359.698802
 51
90.305782
  0
ARC
  8
APS_GEOMETRY
 10
-5476.905184
 20
-5711.306361
 40
1.4544
 50
89.95524
 51
153.259818
  0
LINE
  8
APS_GEOMETRY
 10
-5473.904034
 11
-5473.903997
 20
-5713.001961
 21
-5710.701944
  0
ARC
  8
APS_GEOMETRY
 10
-5474.749535
 20
-5710.697499
 40
0.84555
 50
359.698802
 51
90.305782
  0
ARC
  8
APS_GEOMETRY
 10
-5474.755184
 20
-5711.306361
 40
1.4544
 50
89.95524
 51
153.259818
  0
ARC
  8
APS_GEOMETRY
 10
-5472.144745
 20
-5711.237915
 40
1.28635
 50
34.918935
 51
89.788286
  0
ARC
  8
APS_GEOMETRY
 10
-5472.137782
 20
-5711.128222
 40
1.17665
 50
90.107612
 51
153.411206
  0
ARC
  8
APS_GEOMETRY
 10
-5471.391294
 20
-5711.50158
 40
2.0113
 50
153.418143
 51
206.580988
  0
ARC
  8
APS_GEOMETRY
 10
-5472.137794
 20
-5711.874915
 40
1.17665
 50
206.588587
 51
269.892768
  0
ARC
  8
APS_GEOMETRY
 10
-5472.14474
 20
-5711.765222
 40
1.28635
 50
270.211306
 51
325.080683
  0
ARC
  8
APS_GEOMETRY
 10
-5468.939798
 20
-5709.806555
 40
1.2409
 50
81.8929
 51
98.1071
  0
ARC
  8
APS_GEOMETRY
 10
-5469.116898
 20
-5708.975951
 40
0.3979
 50
89.697115
 51
180.304302
  0
LINE
  8
APS_GEOMETRY
 10
-5469.514792
 11
-5469.514798
 20
-5708.978064
 21
-5713.028055
  0
ARC
  8
APS_GEOMETRY
 10
-5453.661207
 20
-5711.75048
 40
1.28635
 50
214.9193
 51
269.7887
  0
ARC
  8
APS_GEOMETRY
 10
-5453.668154
 20
-5711.860173
 40
1.17665
 50
270.107286
 51
333.411453
  0
ARC
  8
APS_GEOMETRY
 10
-5454.414653
 20
-5711.486837
 40
2.0113
 50
333.419004
 51
26.581833
  0
ARC
  8
APS_GEOMETRY
 10
-5453.668165
 20
-5711.11348
 40
1.17665
 50
26.588806
 51
89.892418
  0
ARC
  8
APS_GEOMETRY
 10
-5453.661202
 20
-5711.223173
 40
1.28635
 50
90.211722
 51
145.081049
  0
ARC
  8
APS_GEOMETRY
 10
-5441.080791
 20
-5711.807015
 40
1.17055
 50
206.2329
 51
333.7671
  0
ARC
  8
APS_GEOMETRY
 10
-5441.829496
 20
-5711.424407
 40
2.0113
 50
333.417894
 51
26.581331
  0
ARC
  8
APS_GEOMETRY
 10
-5441.080787
 20
-5711.041806
 40
1.17055
 50
26.232
 51
153.767605
  0
ARC
  8
APS_GEOMETRY
 10
-5440.332082
 20
-5711.424415
 40
2.0113
 50
153.418183
 51
206.58185
  0
ARC
  8
APS_GEOMETRY
 10
-5438.055605
 20
-5711.807015
 40
1.17055
 50
206.2329
 51
333.7671
  0
ARC
  8
APS_GEOMETRY
 10
-5438.804309
 20
-5711.424406
 40
2.0113
 50
333.417862
 51
26.581299
  0
ARC
  8
APS_GEOMETRY
 10
-5438.0556
 20
-5711.041806
 40
1.17055
 50
26.232
 51
153.767605
  0
ARC
  8
APS_GEOMETRY
 10
-5437.306896
 20
-5711.424416
 40
2.0113
 50
153.418151
 51
206.581818
  0
ARC
  8
APS_GEOMETRY
 10
-5435.141836
 20
-5711.237915
 40
1.28635
 50
34.918935
 51
89.788286
  0
ARC
  8
APS_GEOMETRY
 10
-5435.134874
 20
-5711.128222
 40
1.17665
 50
90.107563
 51
153.411206
  0
ARC
  8
APS_GEOMETRY
 10
-5434.388386
 20
-5711.50158
 40
2.0113
 50
153.418143
 51
206.580988
  0
ARC
  8
APS_GEOMETRY
 10
-5435.134886
 20
-5711.874915
 40
1.17665
 50
206.588587
 51
269.892768
  0
ARC
  8
APS_GEOMETRY
 10
-5435.141832
 20
-5711.765222
 40
1.28635
 50
270.211306
 51
325.080683
  0
LINE
  8
APS_GEOMETRY
 10
-5937.842289
 11
-5639.842284
 20
-5785.235362
 21
-5785.235362
  0
LINE
  8
APS_GEOMETRY
 10
-5639.842284
 11
-5639.842284
 20
-5785.235362
 21
-5575.235392
  0
LINE
  8
APS_GEOMETRY
 10
-5639.842284
 11
-5937.842289
 20
-5575.235392
 21
-5575.235392
  0
LINE
  8
APS_GEOMETRY
 10
-5937.842289
 11
-5937.842289
 20
-5575.235392
 21
-5785.235362
  0
LINE
  8
APS_GEOMETRY
 10
-5922.084317
 11
-5922.089986
 20
-5586.707245
 21
-5595.707244
  0
LINE
  8
APS_GEOMETRY
 10
-5917.587223
 11
-5926.587081
 20
-5591.181965
 21
-5591.232524
  0
LINE
  8
APS_GEOMETRY
 10
-5821.067131
 11
-5821.072801
 20
-5590.936012
 21
-5599.93601
  0
LINE
  8
APS_GEOMETRY
 10
-5816.570037
 11
-5825.569895
 20
-5595.410731
 21
-5595.461291
  0
LINE
  8
APS_GEOMETRY
 10
-5723.310072
 11
-5723.315741
 20
-5586.969573
 21
-5595.969571
  0
LINE
  8
APS_GEOMETRY
 10
-5718.812977
 11
-5727.812835
 20
-5591.444292
 21
-5591.494852
  0
LINE
  8
APS_GEOMETRY
 10
-5837.842289
 11
-5837.842289
 20
-5575.235392
 21
-5785.235362
  0
LINE
  8
APS_GEOMETRY
 10
-5739.842284
 11
-5739.842284
 20
-5785.235362
 21
-5575.235392
  0
LINE
  8
APS_GEOMETRY
 10
-5937.842289
 11
-5937.842289
 20
-5790.235362
 21
-5807.250588
  0
LINE
  8
APS_GEOMETRY
 10
-5639.842284
 11
-5639.842284
 20
-5790.235362
 21
-5807.250588
  0
LINE
  8
APS_GEOMETRY
 10
-5937.842289
 11
-5927.842289
 20
-5802.250588
 21
-5800.583588
  0
LINE
  8
APS_GEOMETRY
 10
-5927.842289
 11
-5927.842289
 20
-5800.583588
 21
-5803.917588
  0
LINE
  8
APS_GEOMETRY
 10
-5927.842289
 11
-5937.842289
 20
-5803.917588
 21
-5802.250588
  0
LINE
  8
APS_GEOMETRY
 10
-5937.842289
 11
-5803.857254
 20
-5802.250588
 21
-5802.250588
  0
LINE
  8
APS_GEOMETRY
 10
-5773.827319
 11
-5639.842284
 20
-5802.250588
 21
-5802.250588
  0
LINE
  8
APS_GEOMETRY
 10
-5639.842284
 11
-5649.842284
 20
-5802.250588
 21
-5800.583588
  0
LINE
  8
APS_GEOMETRY
 10
-5649.842284
 11
-5649.842284
 20
-5800.583588
 21
-5803.917588
  0
LINE
  8
APS_GEOMETRY
 10
-5649.842284
 11
-5639.842284
 20
-5803.917588
 21
-5802.250588
  0
LINE
  8
APS_GEOMETRY
 10
-5686.740967
 11
-5680.629856
 20
-5833.202149
 21
-5833.202149
  0
LINE
  8
APS_GEOMETRY
 10
-5687.96319
 11
-5684.074301
 20
-5836.222331
 21
-5826.222331
  0
LINE
  8
APS_GEOMETRY
 10
-5684.074301
 11
-5683.185412
 20
-5826.222331
 21
-5826.222331
  0
LINE
  8
APS_GEOMETRY
 10
-5683.185412
 11
-5679.518745
 20
-5826.222331
 21
-5836.222331
  0
LINE
  8
APS_GEOMETRY
 10
-5669.886317
 11
-5678.219651
 20
-5832.885569
 21
-5832.885569
  0
LINE
  8
APS_GEOMETRY
 10
-5678.219651
 11
-5678.219651
 20
-5832.885569
 21
-5832.330013
  0
LINE
  8
APS_GEOMETRY
 10
-5678.219651
 11
-5672.664095
 20
-5832.330013
 21
-5826.218902
  0
LINE
  8
APS_GEOMETRY
 10
-5672.664095
 11
-5672.108539
 20
-5826.218902
 21
-5826.218902
  0
LINE
  8
APS_GEOMETRY
 10
-5672.108539
 11
-5672.108539
 20
-5826.218902
 21
-5836.218902
  0
LINE
  8
APS_GEOMETRY
 10
-5650.327073
 11
-5644.215962
 20
-5833.202149
 21
-5833.202149
  0
LINE
  8
APS_GEOMETRY
 10
-5651.549296
 11
-5647.660407
 20
-5836.222331
 21
-5826.222331
  0
LINE
  8
APS_GEOMETRY
 10
-5647.660407
 11
-5646.771518
 20
-5826.222331
 21
-5826.222331
  0
LINE
  8
APS_GEOMETRY
 10
-5646.771518
 11
-5643.104851
 20
-5826.222331
 21
-5836.222331
  0
LINE
  8
APS_GEOMETRY
 10
-5637.660406
 11
-5635.438184
 20
-5831.333442
 21
-5836.222331
  0
LINE
  8
APS_GEOMETRY
 10
-5926.08192
 11
-5926.08192
 20
-5825.823358
 21
-5835.712247
  0
LINE
  8
APS_GEOMETRY
 10
-5929.970809
 11
-5922.193031
 20
-5825.712247
 21
-5825.712247
  0
LINE
  8
APS_GEOMETRY
 10
-5922.011861
 11
-5915.90075
 20
-5832.760447
 21
-5832.760447
  0
LINE
  8
APS_GEOMETRY
 10
-5923.234084
 11
-5919.345195
 20
-5835.78063
 21
-5825.780629
  0
LINE
  8
APS_GEOMETRY
 10
-5919.345195
 11
-5918.456306
 20
-5825.780629
 21
-5825.780629
  0
LINE
  8
APS_GEOMETRY
 10
-5918.456306
 11
-5914.789639
 20
-5825.780629
 21
-5835.78063
  0
LINE
  8
APS_GEOMETRY
 10
-5909.345194
 11
-5907.122972
 20
-5830.891741
 21
-5835.78063
  0
LINE
  8
APS_GEOMETRY
 10
-5889.653516
 11
-5896.320183
 20
-5825.780629
 21
-5825.780629
  0
LINE
  8
APS_GEOMETRY
 10
-5896.320183
 11
-5896.320183
 20
-5825.780629
 21
-5835.78063
  0
LINE
  8
APS_GEOMETRY
 10
-5896.320183
 11
-5889.653516
 20
-5835.78063
 21
-5835.78063
  0
LINE
  8
APS_GEOMETRY
 10
-5896.209072
 11
-5891.875739
 20
-5830.447296
 21
-5830.447296
  0
LINE
  8
APS_GEOMETRY
 10
-5884.723574
 11
-5884.723574
 20
-5825.823358
 21
-5835.712247
  0
LINE
  8
APS_GEOMETRY
 10
-5888.612463
 11
-5880.834685
 20
-5825.712247
 21
-5825.712247
  0
LINE
  8
APS_GEOMETRY
 10
-5861.847622
 11
-5857.514289
 20
-5830.78063
 21
-5830.78063
  0
LINE
  8
APS_GEOMETRY
 10
-5855.292066
 11
-5861.958733
 20
-5825.780629
 21
-5825.780629
  0
LINE
  8
APS_GEOMETRY
 10
-5861.958733
 11
-5861.958733
 20
-5825.780629
 21
-5835.78063
  0
LINE
  8
APS_GEOMETRY
 10
-5841.320016
 11
-5839.097794
 20
-5830.891741
 21
-5835.78063
  0
LINE
  8
APS_GEOMETRY
 10
-5826.931127
 11
-5826.931127
 20
-5835.78063
 21
-5825.780629
  0
LINE
  8
APS_GEOMETRY
 10
-5826.931127
 11
-5826.375572
 20
-5825.780629
 21
-5825.780629
  0
LINE
  8
APS_GEOMETRY
 10
-5826.375572
 11
-5822.486683
 20
-5825.780629
 21
-5835.78063
  0
LINE
  8
APS_GEOMETRY
 10
-5822.486683
 11
-5818.597794
 20
-5835.78063
 21
-5825.780629
  0
LINE
  8
APS_GEOMETRY
 10
-5818.597794
 11
-5818.042238
 20
-5825.780629
 21
-5825.780629
  0
LINE
  8
APS_GEOMETRY
 10
-5818.042238
 11
-5818.042238
 20
-5825.780629
 21
-5835.78063
  0
LINE
  8
APS_GEOMETRY
 10
-5808.820016
 11
-5813.26446
 20
-5835.78063
 21
-5829.669518
  0
LINE
  8
APS_GEOMETRY
 10
-5815.931127
 11
-5808.820016
 20
-5831.78063
 21
-5825.780629
  0
LINE
  8
APS_GEOMETRY
 10
-5816.042238
 11
-5816.042238
 20
-5825.780629
 21
-5835.78063
  0
LINE
  8
APS_GEOMETRY
 10
-5788.542237
 11
-5781.542237
 20
-5830.447296
 21
-5830.447296
  0
LINE
  8
APS_GEOMETRY
 10
-5781.431126
 11
-5781.431126
 20
-5825.780629
 21
-5835.78063
  0
LINE
  8
APS_GEOMETRY
 10
-5788.653349
 11
-5788.653349
 20
-5825.780629
 21
-5835.78063
  0
LINE
  8
APS_GEOMETRY
 10
-5772.764459
 11
-5779.431126
 20
-5825.780629
 21
-5825.780629
  0
LINE
  8
APS_GEOMETRY
 10
-5779.431126
 11
-5779.431126
 20
-5825.780629
 21
-5835.78063
  0
LINE
  8
APS_GEOMETRY
 10
-5779.431126
 11
-5772.764459
 20
-5835.78063
 21
-5835.78063
  0
LINE
  8
APS_GEOMETRY
 10
-5779.320015
 11
-5774.986681
 20
-5830.447296
 21
-5830.447296
  0
LINE
  8
APS_GEOMETRY
 10
-5770.542237
 11
-5764.431125
 20
-5832.760447
 21
-5832.760447
  0
LINE
  8
APS_GEOMETRY
 10
-5771.764459
 11
-5767.87557
 20
-5835.78063
 21
-5825.780629
  0
LINE
  8
APS_GEOMETRY
 10
-5767.87557
 11
-5766.986681
 20
-5825.780629
 21
-5825.780629
  0
LINE
  8
APS_GEOMETRY
 10
-5766.986681
 11
-5763.320014
 20
-5825.780629
 21
-5835.78063
  0
LINE
  8
APS_GEOMETRY
 10
-5740.763663
 11
-5740.763663
 20
-5829.48063
 21
-5835.78063
  0
LINE
  8
APS_GEOMETRY
 10
-5742.04997
 11
-5739.477356
 20
-5835.78063
 21
-5835.78063
  0
LINE
  8
APS_GEOMETRY
 10
-5731.934934
 11
-5729.534934
 20
-5829.547476
 21
-5835.847476
  0
LINE
  8
APS_GEOMETRY
 10
-5729.534934
 11
-5729.234934
 20
-5835.847476
 21
-5835.847476
  0
LINE
  8
APS_GEOMETRY
 10
-5729.234934
 11
-5726.834934
 20
-5835.847476
 21
-5829.547476
  0
LINE
  8
APS_GEOMETRY
 10
-5551.127197
 11
-5548.127197
 20
-5593.665846
 21
-5593.665846
  0
LINE
  8
APS_GEOMETRY
 10
-5548.127197
 11
-5548.127197
 20
-5593.665846
 21
-5590.665846
  0
LINE
  8
APS_GEOMETRY
 10
-5548.127197
 11
-5551.127197
 20
-5590.665846
 21
-5590.665846
  0
LINE
  8
APS_GEOMETRY
 10
-5551.127197
 11
-5551.127197
 20
-5590.665846
 21
-5593.665846
  0
LINE
  8
APS_GEOMETRY
 10
-5525.627197
 11
-5522.627197
 20
-5593.665846
 21
-5593.665846
  0
LINE
  8
APS_GEOMETRY
 10
-5522.627197
 11
-5522.627197
 20
-5593.665846
 21
-5590.665846
  0
LINE
  8
APS_GEOMETRY
 10
-5522.627197
 11
-5525.627197
 20
-5590.665846
 21
-5590.665846
  0
LINE
  8
APS_GEOMETRY
 10
-5525.627197
 11
-5525.627197
 20
-5590.665846
 21
-5593.665846
  0
LINE
  8
APS_GEOMETRY
 10
-5551.127197
 11
-5548.127197
 20
-5634.365846
 21
-5634.365846
  0
LINE
  8
APS_GEOMETRY
 10
-5548.127197
 11
-5548.127197
 20
-5634.365846
 21
-5631.365846
  0
LINE
  8
APS_GEOMETRY
 10
-5548.127197
 11
-5551.127197
 20
-5631.365846
 21
-5631.365846
  0
LINE
  8
APS_GEOMETRY
 10
-5551.127197
 11
-5551.127197
 20
-5631.365846
 21
-5634.365846
  0
LINE
  8
APS_GEOMETRY
 10
-5525.627197
 11
-5522.627197
 20
-5634.365846
 21
-5634.365846
  0
LINE
  8
APS_GEOMETRY
 10
-5522.627197
 11
-5522.627197
 20
-5634.365846
 21
-5631.365846
  0
LINE
  8
APS_GEOMETRY
 10
-5522.627197
 11
-5525.627197
 20
-5631.365846
 21
-5631.365846
  0
LINE
  8
APS_GEOMETRY
 10
-5525.627197
 11
-5525.627197
 20
-5631.365846
 21
-5634.365846
  0
LINE
  8
APS_GEOMETRY
 10
-5551.127232
 11
-5548.127232
 20
-5686.065797
 21
-5686.065797
  0
LINE
  8
APS_GEOMETRY
 10
-5548.127232
 11
-5548.127232
 20
-5686.065797
 21
-5692.065797
  0
LINE
  8
APS_GEOMETRY
 10
-5548.127232
 11
-5551.127232
 20
-5692.065797
 21
-5692.065797
  0
LINE
  8
APS_GEOMETRY
 10
-5551.127232
 11
-5551.127232
 20
-5692.065797
 21
-5686.065797
  0
LINE
  8
APS_GEOMETRY
 10
-5525.627232
 11
-5522.627232
 20
-5686.065797
 21
-5686.065797
  0
LINE
  8
APS_GEOMETRY
 10
-5522.627232
 11
-5522.627232
 20
-5686.065797
 21
-5692.065797
  0
LINE
  8
APS_GEOMETRY
 10
-5522.627232
 11
-5525.627232
 20
-5692.065797
 21
-5692.065797
  0
LINE
  8
APS_GEOMETRY
 10
-5525.627232
 11
-5525.627232
 20
-5692.065797
 21
-5686.065797
  0
LINE
  8
APS_GEOMETRY
 10
-5430.683239
 11
-5433.683239
 20
-5593.288854
 21
-5593.288854
  0
LINE
  8
APS_GEOMETRY
 10
-5433.683239
 11
-5433.683239
 20
-5593.288854
 21
-5590.288854
  0
LINE
  8
APS_GEOMETRY
 10
-5433.683239
 11
-5430.683239
 20
-5590.288854
 21
-5590.288854
  0
LINE
  8
APS_GEOMETRY
 10
-5430.683239
 11
-5430.683239
 20
-5590.288854
 21
-5593.288854
  0
LINE
  8
APS_GEOMETRY
 10
-5456.183239
 11
-5459.183239
 20
-5593.288854
 21
-5593.288854
  0
LINE
  8
APS_GEOMETRY
 10
-5459.183239
 11
-5459.183239
 20
-5593.288854
 21
-5590.288854
  0
LINE
  8
APS_GEOMETRY
 10
-5459.183239
 11
-5456.183239
 20
-5590.288854
 21
-5590.288854
  0
LINE
  8
APS_GEOMETRY
 10
-5456.183239
 11
-5456.183239
 20
-5590.288854
 21
-5593.288854
  0
LINE
  8
APS_GEOMETRY
 10
-5430.683239
 11
-5433.683239
 20
-5633.988854
 21
-5633.988854
  0
LINE
  8
APS_GEOMETRY
 10
-5433.683239
 11
-5433.683239
 20
-5633.988854
 21
-5630.988854
  0
LINE
  8
APS_GEOMETRY
 10
-5433.683239
 11
-5430.683239
 20
-5630.988854
 21
-5630.988854
  0
LINE
  8
APS_GEOMETRY
 10
-5430.683239
 11
-5430.683239
 20
-5630.988854
 21
-5633.988854
  0
LINE
  8
APS_GEOMETRY
 10
-5456.183239
 11
-5459.183239
 20
-5633.988854
 21
-5633.988854
  0
LINE
  8
APS_GEOMETRY
 10
-5459.183239
 11
-5459.183239
 20
-5633.988854
 21
-5630.988854
  0
LINE
  8
APS_GEOMETRY
 10
-5459.183239
 11
-5456.183239
 20
-5630.988854
 21
-5630.988854
  0
LINE
  8
APS_GEOMETRY
 10
-5456.183239
 11
-5456.183239
 20
-5630.988854
 21
-5633.988854
  0
LINE
  8
APS_GEOMETRY
 10
-5430.683204
 11
-5433.683204
 20
-5685.688805
 21
-5685.688805
  0
LINE
  8
APS_GEOMETRY
 10
-5433.683204
 11
-5433.683204
 20
-5685.688805
 21
-5691.688805
  0
LINE
  8
APS_GEOMETRY
 10
-5433.683204
 11
-5430.683204
 20
-5691.688805
 21
-5691.688805
  0
LINE
  8
APS_GEOMETRY
 10
-5430.683204
 11
-5430.683204
 20
-5691.688805
 21
-5685.688805
  0
LINE
  8
APS_GEOMETRY
 10
-5456.183204
 11
-5459.183204
 20
-5685.688805
 21
-5685.688805
  0
LINE
  8
APS_GEOMETRY
 10
-5459.183204
 11
-5459.183204
 20
-5685.688805
 21
-5691.688805
  0
LINE
  8
APS_GEOMETRY
 10
-5459.183204
 11
-5456.183204
 20
-5691.688805
 21
-5691.688805
  0
LINE
  8
APS_GEOMETRY
 10
-5456.183204
 11
-5456.183204
 20
-5691.688805
 21
-5685.688805
  0
LINE
  8
APS_GEOMETRY
 10
-5514.155218
 11
-5467.655218
 20
-5587.665846
 21
-5587.665846
  0
LINE
  8
APS_GEOMETRY
 10
-5467.655218
 11
-5467.655218
 20
-5587.665846
 21
-5695.065797
  0
LINE
  8
APS_GEOMETRY
 10
-5467.655218
 11
-5514.155218
 20
-5695.065797
 21
-5695.065797
  0
LINE
  8
APS_GEOMETRY
 10
-5514.155218
 11
-5514.155218
 20
-5695.065797
 21
-5587.665846
  0
LINE
  8
APS_GEOMETRY
 10
-5511.155218
 11
-5508.155218
 20
-5598.665846
 21
-5598.665846
  0
LINE
  8
APS_GEOMETRY
 10
-5508.155218
 11
-5508.155218
 20
-5598.665846
 21
-5603.665846
  0
LINE
  8
APS_GEOMETRY
 10
-5508.155218
 11
-5511.155218
 20
-5603.665846
 21
-5603.665846
  0
LINE
  8
APS_GEOMETRY
 10
-5511.155218
 11
-5511.155218
 20
-5603.665846
 21
-5598.665846
  0
LINE
  8
APS_GEOMETRY
 10
-5473.655218
 11
-5470.655218
 20
-5598.665846
 21
-5598.665846
  0
LINE
  8
APS_GEOMETRY
 10
-5470.655218
 11
-5470.655218
 20
-5598.665846
 21
-5603.665846
  0
LINE
  8
APS_GEOMETRY
 10
-5470.655218
 11
-5473.655218
 20
-5603.665846
 21
-5603.665846
  0
LINE
  8
APS_GEOMETRY
 10
-5473.655218
 11
-5473.655218
 20
-5603.665846
 21
-5598.665846
  0
LINE
  8
APS_GEOMETRY
 10
-5511.155218
 11
-5508.155218
 20
-5630.865846
 21
-5630.865846
  0
LINE
  8
APS_GEOMETRY
 10
-5508.155218
 11
-5508.155218
 20
-5630.865846
 21
-5635.865846
  0
LINE
  8
APS_GEOMETRY
 10
-5508.155218
 11
-5511.155218
 20
-5635.865846
 21
-5635.865846
  0
LINE
  8
APS_GEOMETRY
 10
-5511.155218
 11
-5511.155218
 20
-5635.865846
 21
-5630.865846
  0
LINE
  8
APS_GEOMETRY
 10
-5473.655218
 11
-5470.655218
 20
-5630.865846
 21
-5630.865846
  0
LINE
  8
APS_GEOMETRY
 10
-5470.655218
 11
-5470.655218
 20
-5630.865846
 21
-5635.865846
  0
LINE
  8
APS_GEOMETRY
 10
-5470.655218
 11
-5473.655218
 20
-5635.865846
 21
-5635.865846
  0
LINE
  8
APS_GEOMETRY
 10
-5473.655218
 11
-5473.655218
 20
-5635.865846
 21
-5630.865846
  0
LINE
  8
APS_GEOMETRY
 10
-5511.155218
 11
-5508.155218
 20
-5663.065846
 21
-5663.065846
  0
LINE
  8
APS_GEOMETRY
 10
-5508.155218
 11
-5508.155218
 20
-5663.065846
 21
-5668.065846
  0
LINE
  8
APS_GEOMETRY
 10
-5508.155218
 11
-5511.155218
 20
-5668.065846
 21
-5668.065846
  0
LINE
  8
APS_GEOMETRY
 10
-5511.155218
 11
-5511.155218
 20
-5668.065846
 21
-5663.065846
  0
LINE
  8
APS_GEOMETRY
 10
-5473.655218
 11
-5470.655218
 20
-5663.065846
 21
-5663.065846
  0
LINE
  8
APS_GEOMETRY
 10
-5470.655218
 11
-5470.655218
 20
-5663.065846
 21
-5668.065846
  0
LINE
  8
APS_GEOMETRY
 10
-5470.655218
 11
-5473.655218
 20
-5668.065846
 21
-5668.065846
  0
LINE
  8
APS_GEOMETRY
 10
-5473.655218
 11
-5473.655218
 20
-5668.065846
 21
-5663.065846
  0
LINE
  8
APS_GEOMETRY
 10
-5505.155218
 11
-5502.155218
 20
-5593.665846
 21
-5593.665846
  0
LINE
  8
APS_GEOMETRY
 10
-5502.155218
 11
-5502.155218
 20
-5593.665846
 21
-5590.665846
  0
LINE
  8
APS_GEOMETRY
 10
-5502.155218
 11
-5505.155218
 20
-5590.665846
 21
-5590.665846
  0
LINE
  8
APS_GEOMETRY
 10
-5505.155218
 11
-5505.155218
 20
-5590.665846
 21
-5593.665846
  0
LINE
  8
APS_GEOMETRY
 10
-5479.655218
 11
-5476.655218
 20
-5593.665846
 21
-5593.665846
  0
LINE
  8
APS_GEOMETRY
 10
-5476.655218
 11
-5476.655218
 20
-5593.665846
 21
-5590.665846
  0
LINE
  8
APS_GEOMETRY
 10
-5476.655218
 11
-5479.655218
 20
-5590.665846
 21
-5590.665846
  0
LINE
  8
APS_GEOMETRY
 10
-5479.655218
 11
-5479.655218
 20
-5590.665846
 21
-5593.665846
  0
LINE
  8
APS_GEOMETRY
 10
-5505.155218
 11
-5502.155218
 20
-5634.365846
 21
-5634.365846
  0
LINE
  8
APS_GEOMETRY
 10
-5502.155218
 11
-5502.155218
 20
-5634.365846
 21
-5631.365846
  0
LINE
  8
APS_GEOMETRY
 10
-5502.155218
 11
-5505.155218
 20
-5631.365846
 21
-5631.365846
  0
LINE
  8
APS_GEOMETRY
 10
-5505.155218
 11
-5505.155218
 20
-5631.365846
 21
-5634.365846
  0
LINE
  8
APS_GEOMETRY
 10
-5479.655218
 11
-5476.655218
 20
-5634.365846
 21
-5634.365846
  0
LINE
  8
APS_GEOMETRY
 10
-5476.655218
 11
-5476.655218
 20
-5634.365846
 21
-5631.365846
  0
LINE
  8
APS_GEOMETRY
 10
-5476.655218
 11
-5479.655218
 20
-5631.365846
 21
-5631.365846
  0
LINE
  8
APS_GEOMETRY
 10
-5479.655218
 11
-5479.655218
 20
-5631.365846
 21
-5634.365846
  0
LINE
  8
APS_GEOMETRY
 10
-5505.155253
 11
-5502.155253
 20
-5686.065797
 21
-5686.065797
  0
LINE
  8
APS_GEOMETRY
 10
-5502.155253
 11
-5502.155253
 20
-5686.065797
 21
-5692.065797
  0
LINE
  8
APS_GEOMETRY
 10
-5502.155253
 11
-5505.155253
 20
-5692.065797
 21
-5692.065797
  0
LINE
  8
APS_GEOMETRY
 10
-5505.155253
 11
-5505.155253
 20
-5692.065797
 21
-5686.065797
  0
LINE
  8
APS_GEOMETRY
 10
-5479.655253
 11
-5476.655253
 20
-5686.065797
 21
-5686.065797
  0
LINE
  8
APS_GEOMETRY
 10
-5476.655253
 11
-5476.655253
 20
-5686.065797
 21
-5692.065797
  0
LINE
  8
APS_GEOMETRY
 10
-5476.655253
 11
-5479.655253
 20
-5692.065797
 21
-5692.065797
  0
LINE
  8
APS_GEOMETRY
 10
-5479.655253
 11
-5479.655253
 20
-5692.065797
 21
-5686.065797
  0
LINE
  8
APS_GEOMETRY
 10
-5592.462856
 11
-5557.962856
 20
-5624.998964
 21
-5624.998964
  0
LINE
  8
APS_GEOMETRY
 10
-5557.962856
 11
-5557.962856
 20
-5624.998964
 21
-5621.998964
  0
LINE
  8
APS_GEOMETRY
 10
-5557.962856
 11
-5555.962856
 20
-5621.998964
 21
-5621.998964
  0
LINE
  8
APS_GEOMETRY
 10
-5555.962856
 11
-5555.962856
 20
-5621.998964
 21
-5618.998964
  0
LINE
  8
APS_GEOMETRY
 10
-5555.962856
 11
-5557.962856
 20
-5618.998964
 21
-5618.998964
  0
LINE
  8
APS_GEOMETRY
 10
-5557.962856
 11
-5557.962856
 20
-5618.998964
 21
-5596.498964
  0
LINE
  8
APS_GEOMETRY
 10
-5557.962856
 11
-5555.962856
 20
-5596.498964
 21
-5596.498964
  0
LINE
  8
APS_GEOMETRY
 10
-5555.962856
 11
-5555.962856
 20
-5596.498964
 21
-5593.498964
  0
LINE
  8
APS_GEOMETRY
 10
-5555.962856
 11
-5557.962856
 20
-5593.498964
 21
-5593.498964
  0
LINE
  8
APS_GEOMETRY
 10
-5557.962856
 11
-5557.962856
 20
-5593.498964
 21
-5590.498964
  0
LINE
  8
APS_GEOMETRY
 10
-5557.962856
 11
-5560.962856
 20
-5590.498964
 21
-5590.498964
  0
LINE
  8
APS_GEOMETRY
 10
-5560.962856
 11
-5560.962856
 20
-5590.498964
 21
-5588.498964
  0
LINE
  8
APS_GEOMETRY
 10
-5560.962856
 11
-5563.962856
 20
-5588.498964
 21
-5588.498964
  0
LINE
  8
APS_GEOMETRY
 10
-5563.962856
 11
-5563.962856
 20
-5588.498964
 21
-5590.498964
  0
LINE
  8
APS_GEOMETRY
 10
-5563.962856
 11
-5586.462856
 20
-5590.498964
 21
-5590.498964
  0
LINE
  8
APS_GEOMETRY
 10
-5586.462856
 11
-5586.462856
 20
-5590.498964
 21
-5588.498964
  0
LINE
  8
APS_GEOMETRY
 10
-5586.462856
 11
-5589.462856
 20
-5588.498964
 21
-5588.498964
  0
LINE
  8
APS_GEOMETRY
 10
-5589.462856
 11
-5589.462856
 20
-5588.498964
 21
-5590.498964
  0
LINE
  8
APS_GEOMETRY
 10
-5589.462856
 11
-5592.462856
 20
-5590.498964
 21
-5590.498964
  0
LINE
  8
APS_GEOMETRY
 10
-5592.462856
 11
-5592.462856
 20
-5590.498964
 21
-5593.498964
  0
LINE
  8
APS_GEOMETRY
 10
-5592.462856
 11
-5594.462856
 20
-5593.498964
 21
-5593.498964
  0
LINE
  8
APS_GEOMETRY
 10
-5594.462856
 11
-5594.462856
 20
-5593.498964
 21
-5596.498964
  0
LINE
  8
APS_GEOMETRY
 10
-5594.462856
 11
-5592.462856
 20
-5596.498964
 21
-5596.498964
  0
LINE
  8
APS_GEOMETRY
 10
-5592.462856
 11
-5592.462856
 20
-5596.498964
 21
-5618.998964
  0
LINE
  8
APS_GEOMETRY
 10
-5592.462856
 11
-5594.462856
 20
-5618.998964
 21
-5618.998964
  0
LINE
  8
APS_GEOMETRY
 10
-5594.462856
 11
-5594.462856
 20
-5618.998964
 21
-5621.998964
  0
LINE
  8
APS_GEOMETRY
 10
-5594.462856
 11
-5592.462856
 20
-5621.998964
 21
-5621.998964
  0
LINE
  8
APS_GEOMETRY
 10
-5592.462856
 11
-5592.462856
 20
-5621.998964
 21
-5624.998964
  0
LINE
  8
APS_GEOMETRY
 10
-5592.005668
 11
-5557.505668
 20
-5663.55947
 21
-5663.55947
  0
LINE
  8
APS_GEOMETRY
 10
-5557.505668
 11
-5557.505668
 20
-5663.55947
 21
-5660.55947
  0
LINE
  8
APS_GEOMETRY
 10
-5557.505668
 11
-5555.505668
 20
-5660.55947
 21
-5660.55947
  0
LINE
  8
APS_GEOMETRY
 10
-5555.505668
 11
-5555.505668
 20
-5660.55947
 21
-5657.55947
  0
LINE
  8
APS_GEOMETRY
 10
-5555.505668
 11
-5557.505668
 20
-5657.55947
 21
-5657.55947
  0
LINE
  8
APS_GEOMETRY
 10
-5557.505668
 11
-5557.505668
 20
-5657.55947
 21
-5635.05947
  0
LINE
  8
APS_GEOMETRY
 10
-5557.505668
 11
-5555.505668
 20
-5635.05947
 21
-5635.05947
  0
LINE
  8
APS_GEOMETRY
 10
-5555.505668
 11
-5555.505668
 20
-5635.05947
 21
-5632.05947
  0
LINE
  8
APS_GEOMETRY
 10
-5555.505668
 11
-5557.505668
 20
-5632.05947
 21
-5632.05947
  0
LINE
  8
APS_GEOMETRY
 10
-5557.505668
 11
-5557.505668
 20
-5632.05947
 21
-5629.05947
  0
LINE
  8
APS_GEOMETRY
 10
-5557.505668
 11
-5560.505668
 20
-5629.05947
 21
-5629.05947
  0
LINE
  8
APS_GEOMETRY
 10
-5560.505668
 11
-5560.505668
 20
-5629.05947
 21
-5627.05947
  0
LINE
  8
APS_GEOMETRY
 10
-5560.505668
 11
-5563.505668
 20
-5627.05947
 21
-5627.05947
  0
LINE
  8
APS_GEOMETRY
 10
-5563.505668
 11
-5563.505668
 20
-5627.05947
 21
-5629.05947
  0
LINE
  8
APS_GEOMETRY
 10
-5563.505668
 11
-5586.005668
 20
-5629.05947
 21
-5629.05947
  0
LINE
  8
APS_GEOMETRY
 10
-5586.005668
 11
-5586.005668
 20
-5629.05947
 21
-5627.05947
  0
LINE
  8
APS_GEOMETRY
 10
-5586.005668
 11
-5589.005668
 20
-5627.05947
 21
-5627.05947
  0
LINE
  8
APS_GEOMETRY
 10
-5589.005668
 11
-5589.005668
 20
-5627.05947
 21
-5629.05947
  0
LINE
  8
APS_GEOMETRY
 10
-5589.005668
 11
-5592.005668
 20
-5629.05947
 21
-5629.05947
  0
LINE
  8
APS_GEOMETRY
 10
-5592.005668
 11
-5592.005668
 20
-5629.05947
 21
-5632.05947
  0
LINE
  8
APS_GEOMETRY
 10
-5592.005668
 11
-5594.005668
 20
-5632.05947
 21
-5632.05947
  0
LINE
  8
APS_GEOMETRY
 10
-5594.005668
 11
-5594.005668
 20
-5632.05947
 21
-5635.05947
  0
LINE
  8
APS_GEOMETRY
 10
-5594.005668
 11
-5592.005668
 20
-5635.05947
 21
-5635.05947
  0
LINE
  8
APS_GEOMETRY
 10
-5592.005668
 11
-5592.005668
 20
-5635.05947
 21
-5657.55947
  0
LINE
  8
APS_GEOMETRY
 10
-5592.005668
 11
-5594.005668
 20
-5657.55947
 21
-5657.55947
  0
LINE
  8
APS_GEOMETRY
 10
-5594.005668
 11
-5594.005668
 20
-5657.55947
 21
-5660.55947
  0
LINE
  8
APS_GEOMETRY
 10
-5594.005668
 11
-5592.005668
 20
-5660.55947
 21
-5660.55947
  0
LINE
  8
APS_GEOMETRY
 10
-5592.005668
 11
-5592.005668
 20
-5660.55947
 21
-5663.55947
  0
LINE
  8
APS_GEOMETRY
 10
-5525.464694
 11
-5525.464694
 20
-5713.001961
 21
-5709.851961
  0
LINE
  8
APS_GEOMETRY
 10
-5520.164634
 11
-5520.164634
 20
-5713.001961
 21
-5709.851961
  0
LINE
  8
APS_GEOMETRY
 10
-5507.766923
 11
-5507.766923
 20
-5709.764284
 21
-5712.914284
  0
LINE
  8
APS_GEOMETRY
 10
-5503.830258
 11
-5503.830258
 20
-5709.851961
 21
-5713.001961
  0
LINE
  8
APS_GEOMETRY
 10
-5504.473411
 11
-5503.187104
 20
-5713.001961
 21
-5713.001961
  0
LINE
  8
APS_GEOMETRY
 10
-5501.914015
 11
-5500.764015
 20
-5709.783126
 21
-5713.033126
  0
LINE
  8
APS_GEOMETRY
 10
-5501.914015
 11
-5501.514015
 20
-5714.283126
 21
-5714.283126
  0
LINE
  8
APS_GEOMETRY
 10
-5501.514015
 11
-5501.314015
 20
-5714.283126
 21
-5714.233126
  0
LINE
  8
APS_GEOMETRY
 10
-5501.314015
 11
-5501.164015
 20
-5714.233126
 21
-5714.133126
  0
LINE
  8
APS_GEOMETRY
 10
-5501.164015
 11
-5501.064015
 20
-5714.133126
 21
-5713.983126
  0
LINE
  8
APS_GEOMETRY
 10
-5501.064015
 11
-5499.764015
 20
-5713.983126
 21
-5709.783126
  0
LINE
  8
APS_GEOMETRY
 10
-5498.880272
 11
-5498.091611
 20
-5713.001961
 21
-5713.001961
  0
LINE
  8
APS_GEOMETRY
 10
-5498.091611
 11
-5498.091611
 20
-5713.001961
 21
-5708.501961
  0
LINE
  8
APS_GEOMETRY
 10
-5498.091611
 11
-5498.458958
 20
-5708.501961
 21
-5708.501961
  0
LINE
  8
APS_GEOMETRY
 10
-5498.091611
 11
-5497.30295
 20
-5713.001961
 21
-5713.001961
  0
LINE
  8
APS_GEOMETRY
 10
-5495.659796
 11
-5495.659796
 20
-5708.451961
 21
-5708.851961
  0
LINE
  8
APS_GEOMETRY
 10
-5495.659796
 11
-5495.659796
 20
-5713.001961
 21
-5709.851961
  0
LINE
  8
APS_GEOMETRY
 10
-5496.30295
 11
-5495.016643
 20
-5713.001961
 21
-5713.001961
  0
LINE
  8
APS_GEOMETRY
 10
-5486.872418
 11
-5483.872418
 20
-5713.044025
 21
-5708.544025
  0
LINE
  8
APS_GEOMETRY
 10
-5478.204034
 11
-5478.204034
 20
-5713.001961
 21
-5709.851961
  0
LINE
  8
APS_GEOMETRY
 10
-5471.08999
 11
-5471.08999
 20
-5713.001572
 21
-5708.501572
  0
LINE
  8
APS_GEOMETRY
 10
-5470.114798
 11
-5468.864798
 20
-5710.028055
 21
-5710.028055
  0
LINE
  8
APS_GEOMETRY
 10
-5463.409753
 11
-5460.409753
 20
-5713.044025
 21
-5708.544025
  0
LINE
  8
APS_GEOMETRY
 10
-5454.715957
 11
-5454.715957
 20
-5709.88683
 21
-5714.23683
  0
LINE
  8
APS_GEOMETRY
 10
-5451.928761
 11
-5451.1401
 20
-5713.001961
 21
-5713.001961
  0
LINE
  8
APS_GEOMETRY
 10
-5451.1401
 11
-5451.1401
 20
-5713.001961
 21
-5708.501961
  0
LINE
  8
APS_GEOMETRY
 10
-5451.1401
 11
-5451.507447
 20
-5708.501961
 21
-5708.501961
  0
LINE
  8
APS_GEOMETRY
 10
-5451.1401
 11
-5450.351439
 20
-5713.001961
 21
-5713.001961
  0
LINE
  8
APS_GEOMETRY
 10
-5449.235183
 11
-5448.085183
 20
-5709.783126
 21
-5713.033126
  0
LINE
  8
APS_GEOMETRY
 10
-5449.235183
 11
-5448.835183
 20
-5714.283126
 21
-5714.283126
  0
LINE
  8
APS_GEOMETRY
 10
-5448.835183
 11
-5448.635183
 20
-5714.283126
 21
-5714.233126
  0
LINE
  8
APS_GEOMETRY
 10
-5448.635183
 11
-5448.485183
 20
-5714.233126
 21
-5714.133126
  0
LINE
  8
APS_GEOMETRY
 10
-5448.485183
 11
-5448.385183
 20
-5714.133126
 21
-5713.983126
  0
LINE
  8
APS_GEOMETRY
 10
-5448.385183
 11
-5447.085183
 20
-5713.983126
 21
-5709.783126
  0
LINE
  8
APS_GEOMETRY
 10
-5446.569428
 11
-5445.669428
 20
-5709.802563
 21
-5712.952563
  0
LINE
  8
APS_GEOMETRY
 10
-5445.669428
 11
-5445.519428
 20
-5712.952563
 21
-5712.952563
  0
LINE
  8
APS_GEOMETRY
 10
-5445.519428
 11
-5444.619428
 20
-5712.952563
 21
-5709.802563
  0
LINE
  8
APS_GEOMETRY
 10
-5444.619428
 11
-5443.719428
 20
-5709.802563
 21
-5712.952563
  0
LINE
  8
APS_GEOMETRY
 10
-5443.719428
 11
-5443.569428
 20
-5712.952563
 21
-5712.952563
  0
LINE
  8
APS_GEOMETRY
 10
-5443.569428
 11
-5442.669428
 20
-5712.952563
 21
-5709.802563
  0
LINE
  8
APS_GEOMETRY
 10
-5434.087082
 11
-5434.087082
 20
-5713.001572
 21
-5708.501572
  0
LINE
  8
CONSTRUCTION
 10
-5548.127197
 11
-5551.127197
 20
-5590.665846
 21
-5590.665846
  0
LINE
  8
CONSTRUCTION
 10
-5522.627197
 11
-5525.627197
 20
-5590.665846
 21
-5590.665846
  0
LINE
  8
CONSTRUCTION
 10
-5433.683239
 11
-5430.683239
 20
-5590.288854
 21
-5590.288854
  0
LINE
  8
CONSTRUCTION
 10
-5459.183239
 11
-5456.183239
 20
-5590.288854
 21
-5590.288854
  0
LINE
  8
CONSTRUCTION
 10
-5502.155218
 11
-5505.155218
 20
-5590.665846
 21
-5590.665846
  0
LINE
  8
CONSTRUCTION
 10
-5476.655218
 11
-5479.655218
 20
-5590.665846
 21
-5590.665846
  0
LINE
  8
CONSTRUCTION
 10
-5502.155218
 11
-5505.155218
 20
-5631.365846
 21
-5631.365846
  0
LINE
  8
CONSTRUCTION
 10
-5476.655218
 11
-5479.655218
 20
-5631.365846
 21
-5631.365846
  0
ENDSEC
  0
EOF
